música
Buscador

Acorde de Te Entiendo - Pignoise

Letra de Te Entiendo

ACORDES:> A F#m D E



Pongo todos los punteo que creo que estan exactos a la cancion



p = pull-off

pm = palm-mute



Intro:



e |-----------|

b |--2---2p0--|

g |----2------| x4

d |-----------|

a |-----------|

E |-----------|



x4 x4 x4 x4

e |-----------|------------|------------|-------------|

b |--2---2p0--|------------|--3---2-----|----0--------|

g |----2------|----2---1---|----4---4---|--1---1-2----|

d |-----------|--4---4-----|------------|-------------|

a |-----------|------------|------------|-------------|

E |-----------|------------|------------|-------------|









ESTROFA



A F#m

No quiero perder la razón, mirando a cada instante a mi alrededor

D

Sabiendo que no llamaras, ni te cruzaras

E

Que no miraras, que no vas a estar.

A F#m

Pero es que es tan fácil pensar, que cierta tarde tonta nos podemos cruzar

D

¿Que tal estás? Te veo bien.

E

Se puede cortar, esta tarde gris yo me voy a ir.





------------------------------------------------------

ESTRIBILLO

A

Y quiero, olvidar todo y empezar de cero

F#m

Y tengo, una canción y muy poco dinero

D

Espero, tener la oportunidad para poder demostrar

E A

Que nadie más te cuida y que solo yo te entiendo

------------------------------------------------------





https://www.coveralia.com/acordes/te-entiendo-pignoise.php

ESTROFA



A

Puede que no te vuelva a ver

F#m

En tres o cuatro años con la vida al revés

D

Quizás entonces pueda ser, otra tarde gris apunto

E

de llover, se que entonces si.





ESTRIBILLO (1 vez)





Puente: (A, F#m, D, E)



pm

e |--------------------|

b |--------------------|

g |---------------6-6--|

d |--7-7-----7-7-------|

a |------7-7-----------|

E |--------------------|





e |------------------|------------------|------------------|

b |----0-0-0-0-2-0---|----0-0-0-0-2-0---|----0-0-0-0-2-0---|

g |---2-2-2-2-----2--|---2-2-2-2-----2--|---2-2-2-2-----2--|

d |------------------|------------------|-0----------------|

a |-0----------------|------------------|------------------|

E |------------------|-2----------------|------------------|



e |---------------------|

|----0--------0-------|

|---2-2-1-2--2-2-1-2--|

|---------------------|

|-2-------------------|

E |---------------------|





ESTRIBILLO (2veces)



Punteo final:



punteo1 punteo2 punteo1(x2)

e |-----------------------|-----------------------|------------|

b |----0-0---0-0-3-2-0----|----0-0---0-0-3-2-0-3--|------------|

g |---2-2-2-2-2-2------2--|---2-2-2-2-2-2---------|------------|

d |-----------------------|-----------------------|------------|

a |-----------------------|-----------------------|------------|

E |-----------------------|-----------------------|------------|





Letra subida por: Anónimo

Discos en los que aparece este acorde: Anunciado En Television , , , Cuestion De Directo ,

El acorde de Te Entiendo de Pignoise es una versión de la canción original realizada por colaboradores/usuarios de Coveralia.

¿Has encontrado algún error en esta página? Envíanos tu corrección del acorde