música
Buscador

Acorde de Think About Love - Dolly Parton

Letra de Think About Love

INTRO:  GUITAR to imitate ORGAN and XYLOPHONE



Bm G Bm A Bm G D A

E ----------------------------7-5---

B-----------------------------------

G --5-4-5--7---------5-4-5--7-------

D ------------9-7-------------------

A ----------------------------------

E ----------------------------------



Bm G Bm A Bm G D A

E ----------------------------7-5---

B-----------------------------------

G --5-4-5--7---------5-4-5--7-------

D ------------9-7-------------------

A ----------------------------------

E ----------------------------------



E -----0-2-----0-2--

B -3-3-----3-3------

G ------------------

D ------------------

A ------------------

E ------------------





* FILL: PLAYED DURING VERSES *



E -----0-2-----0-2-----0-2-----0-2--3-----

B -3-3-----3-3-----3-3----3-3---------0---

G --------------------------------------2-

D ----------------------------------------

A ----------------------------------------

E ----------------------------------------





VERSE:

D

I can't forget you

Bm G

Ever since the moment that I met you

A

You've been on my mind

D Bm

And I need to somehow let you know

G A D

That I think about you all the time





CHORUS:

G D A D

So when you think about love, think about me

G D A

I can give you more than you'll ever need

G D A Bm

Sooner or later every heart needs some company

G D A D

When you think about love, think about me

Bm G A D

When you think about love, think about me





Bm G Bm A Bm G D A

E ----------------------------7-5---

B-----------------------------------

G --5-4-5--7---------5-4-5--7-------

D ------------9-7-------------------

A ----------------------------------

E ----------------------------------





VERSE:

D

We were strangers

Bm G

Now I'm already wrapped around your finger

A

https://www.coveralia.com/acordes/think-about-love-dolly-parton.php

Oh whats a heart to do

D

'Cause it lingers

Bm

And the thought of you

G A D

Wantin' me as much as I want you





CHORUS:

G D A D

So when you think about love, think about me

G D A

I can give you more than you'll ever need

G D A Bm

Sooner or later every heart needs some company

G D A D

When you think about love, think about me

Bm G A D

When you think about love, think about me





Bm G Bm A Bm G D A D

E ----------------------------7-5---2--

B-----------------------------------3--

G --5-4-5--7---------5-4-5--7-------2--

D ------------9-7----------------------

A -------------------------------------

E -------------------------------------





BREAK:

D D A Bm

Makes me blue

G D G D

I'm not holding you tonight

Bm G

Cause on-ly you can satisfy

A

This heart of mine





CHORUS:

G D A D

So when you think about love, think about me

G D A

'Cause I can give you more than you'll ever need

G D A Bm

Sooner or later every heart needs some company



G D A D

So when you think about love, think about me

G D A D

When you think about love, think about me

G D A

'Cause I can give you more than you'll ever need

G D A Bm

Sooner or later every heart needs some company

G D A D

When you think about love, think about me

G D A D

When you think about love, think about me

G D A

'Cause I can give you more than you'll ever need

G D A Bm

Sooner or later every heart needs some company

G D A D

When you think about love, think about me

G D A D

When you think about love, think about me

G D A

I can give you more than you'll ever need

G D A Bm

Sooner or later every heart needs some company

G D A D

When you think about love, think about me

Letra subida por: Anónimo

Discos en los que aparece este acorde: I Will Always Love You / The Essential Dolly Parton One

El acorde de Think About Love de Dolly Parton es una versión de la canción original realizada por colaboradores/usuarios de Coveralia.

¿Has encontrado algún error en esta página? Envíanos tu corrección del acorde