música
Buscador

Acorde de Tooth, Fang & Claw - Ted Nugent

Letra de Tooth, Fang & Claw

 Intro 2x: 

e|------0-----------0----------------0-----|

B|--------3---3p2-----2----------------0---|

G|--1/2-----2-----2-----2/1/2-1------------|

D|------------------------------0----------|

A|-----------------------------------------|

E|--------------------------------0--------|





D A E

I ain't got time for make believin'

D A E

My time is short, but I'm here to stay

D A E

No politics will cure the grievin'

D A E

So I choose my life, but I choose it my way





|--------14~----17b19-------------|

|-----15--------------17/15~------|

|--14-----------------------------|

|---------------------------------|

|---------------------------------|

|---------------------------------|



(Note: the first 3 motes are actually a harmonic, I'll post it if I figure it out)





(and) Just like the wolf, I'm getting hungry

The law of the land, it is my will

And I ain't got time for staying angry

But I got the time to make a kill



E

Watch me kill



|--0---0-0-----------------------|

|--3s5-3-0-0-----0---------------|

|----------2s4s2p0-0-------------|

|--------------------------------|

|--------------------------------|

|--------------------------------|





D A E

I'm gonna live tooth, fang, and claw



Between every line:

|-----------------------------------|

|-----------------------------------|

|-1-X-X-----0--x-2-x-2-xxxx---------|

|-2-X-X--------x-2-x-2-xxxx---------|

|-2-X-X--------x-2-x-2-xxxx---------|

|-------3b5-------------------------|





D A E

I'm gonna live, and I live my way



D A E

Watch me live tooth, fang, and claw



D A E

Watch me live an extra day





The red man he walked on a sacred hillside

https://www.coveralia.com/acordes/tooth--fang-y-claw-ted-nugent.php

The black man he runs through his Africa

But my daddy stalked the amber prairies

We all gotta live by nature's law

Watch me live





Chorus



I'm gonna live tooth, fang, and claw

I'm gonna live, and I live my way

Watch me live tooth, fang, and claw

Watch me live an extra day

Oh yeah yeah yeah





Key change (currently don't know/haven't learned)



Don't you worry about me

'cause I can and I will survive

I'm running with the pack babe

And like a lone wolf I am alive

Like my forefathers before me

I can use my own two hands

You best believe me

I can live off the land

Oh yeah yeah yeah yeah yeah yeah



(solo)



Back to DAE pattern:



The red man walked on a sacred hillside

And the black man still runs in Africa

Fred Bear he stalked the amber prairies

Me too

We all gotta live by nature's law

Live





Chorus



I'm gonna live tooth, fang, and claw

I'm gonna live, and I live my way

Watch me live tooth, fang, and claw

And watch me live an extra day

I got ta got ta got ta live

Hey hey

Tooth, fang, and claw



Hey hey

Tooth, fang, and claw



Hey hey

Tooth, fang, and claw

Live, live



Hey hey

Tooth, fang, and claw

I got ta live

Hey hey hey hey

Tooth, fang, and claw

I'm alive I'm alive oh whoa

Hey hey hey hey

Tooth fang and claw

I got ta got ta got ta live



(Solo)

Letra subida por: Anónimo

Discos en los que aparece este acorde: Spirit Of The Wild

El acorde de Tooth, Fang & Claw de Ted Nugent es una versión de la canción original realizada por colaboradores/usuarios de Coveralia.

¿Has encontrado algún error en esta página? Envíanos tu corrección del acorde