música
Buscador

Acorde de What's On My Mind - The Cranberries

Letra de What's On My Mind

Intro  : G/Dm



Note : all the Dm are played with a variation :

e--1-1-0-1---------

b--3-3-3-3---------

g--2-2-2-2---------

d--0-0-0-0---------

a--x-x-x-x----------

E--x-x-x-x----------



Verse : G/Dm (Same as intro)



Note: Before the chorus there?s a little riff :

https://www.coveralia.com/acordes/what-s-on-my-mind-the-cranberries.php



g?"9h10-9----------------9h10-9---------------------------

d------------12----9-----------------12-----9----------------



chorus : Am/C      x3



Note:At the end of the chorus there?s a little solo :



g?"9h10-9--------------------------------------------------------------

d--------------12----10--9--10--12--14--------------------------------





Letra subida por: Anónimo

Discos en los que aparece este acorde: Bury The Hatchet , Treasure Box

El acorde de What's On My Mind de The Cranberries es una versión de la canción original realizada por colaboradores/usuarios de Coveralia.

¿Has encontrado algún error en esta página? Envíanos tu corrección del acorde